  0
SECTION
  2
HEADER
  9
$ACADVER
  1
AC1015
  9
$ACADMAINTVER
 70
     6
  9
$DWGCODEPAGE
  3
ANSI_1254
  9
$INSBASE
 10
0.0
 20
0.0
 30
0.0
  9
$EXTMIN
 10
0.0
 20
0.0
 30
0.0
  9
$EXTMAX
 10
279.4
 20
215.9
 30
0.0
  9
$LIMMIN
 10
0.0
 20
0.0
  9
$LIMMAX
 10
279.4
 20
215.9
  9
$ORTHOMODE
 70
     0
  9
$REGENMODE
 70
     1
  9
$FILLMODE
 70
     1
  9
$QTEXTMODE
 70
     0
  9
$MIRRTEXT
 70
     1
  9
$LTSCALE
 40
1.0
  9
$ATTMODE
 70
     1
  9
$TEXTSIZE
 40
3.5
  9
$TRACEWID
 40
1.0
  9
$TEXTSTYLE
  7
Standard
  9
$CLAYER
  8
0
  9
$CELTYPE
  6
ByLayer
  9
$CECOLOR
 62
   256
  9
$CELTSCALE
 40
1.0
  9
$DISPSILH
 70
     0
  9
$DIMSCALE
 40
1.0
  9
$DIMASZ
 40
3.5
  9
$DIMEXO
 40
1.0
  9
$DIMDLI
 40
3.75
  9
$DIMRND
 40
0.0
  9
$DIMDLE
 40
0.0
  9
$DIMEXE
 40
1.0
  9
$DIMTP
 40
0.0
  9
$DIMTM
 40
0.0
  9
$DIMTXT
 40
3.5
  9
$DIMCEN
 40
2.5
  9
$DIMTSZ
 40
0.0
  9
$DIMTOL
 70
     0
  9
$DIMLIM
 70
     0
  9
$DIMTIH
 70
     1
  9
$DIMTOH
 70
     1
  9
$DIMSE1
 70
     0
  9
$DIMSE2
 70
     0
  9
$DIMTAD
 70
     1
  9
$DIMZIN
 70
     0
  9
$DIMBLK
  1

  9
$DIMASO
 70
     1
  9
$DIMSHO
 70
     1
  9
$DIMPOST
  1

  9
$DIMAPOST
  1

  9
$DIMALT
 70
     0
  9
$DIMALTD
 70
     3
  9
$DIMALTF
 40
0.0393700787
  9
$DIMLFAC
 40
1.0
  9
$DIMTOFL
 70
     1
  9
$DIMTVP
 40
0.0
  9
$DIMTIX
 70
     0
  9
$DIMSOXD
 70
     0
  9
$DIMSAH
 70
     0
  9
$DIMBLK1
  1

  9
$DIMBLK2
  1

  9
$DIMSTYLE
  2
ISO-25
  9
$DIMCLRD
 70
     0
  9
$DIMCLRE
 70
     0
  9
$DIMCLRT
 70
     0
  9
$DIMTFAC
 40
1.0
  9
$DIMGAP
 40
1.524
  9
$DIMJUST
 70
     0
  9
$DIMSD1
 70
     0
  9
$DIMSD2
 70
     0
  9
$DIMTOLJ
 70
     0
  9
$DIMTZIN
 70
     0
  9
$DIMALTZ
 70
     0
  9
$DIMALTTZ
 70
     0
  9
$DIMUPT
 70
     0
  9
$DIMDEC
 70
     2
  9
$DIMTDEC
 70
     2
  9
$DIMALTU
 70
     2
  9
$DIMALTTD
 70
     3
  9
$DIMTXSTY
  7
Standard
  9
$DIMAUNIT
 70
     0
  9
$DIMADEC
 70
     2
  9
$DIMALTRND
 40
0.0
  9
$DIMAZIN
 70
     0
  9
$DIMDSEP
 70
    44
  9
$DIMATFIT
 70
     3
  9
$DIMFRAC
 70
     0
  9
$DIMLDRBLK
  1

  9
$DIMLUNIT
 70
     2
  9
$DIMLWD
 70
    -2
  9
$DIMLWE
 70
    -2
  9
$DIMTMOVE
 70
     0
  9
$LUNITS
 70
     2
  9
$LUPREC
 70
     2
  9
$SKETCHINC
 40
1.0
  9
$FILLETRAD
 40
10.0
  9
$AUNITS
 70
     0
  9
$AUPREC
 70
     2
  9
$MENU
  1
.
  9
$ELEVATION
 40
0.0
  9
$PELEVATION
 40
0.0
  9
$THICKNESS
 40
0.0
  9
$LIMCHECK
 70
     0
  9
$CHAMFERA
 40
0.0
  9
$CHAMFERB
 40
0.0
  9
$CHAMFERC
 40
0.0
  9
$CHAMFERD
 40
0.0
  9
$SKPOLY
 70
     0
  9
$TDCREATE
 40
2460608.530371088
  9
$TDUCREATE
 40
2460608.405371088
  9
$TDUPDATE
 40
2460608.530371215
  9
$TDUUPDATE
 40
2460608.405371215
  9
$TDINDWG
 40
0.0000000116
  9
$TDUSRTIMER
 40
0.0000000116
  9
$USRTIMER
 70
     1
  9
$ANGBASE
 50
0.0
  9
$ANGDIR
 70
     0
  9
$PDMODE
 70
     0
  9
$PDSIZE
 40
-1.0
  9
$PLINEWID
 40
0.0
  9
$SPLFRAME
 70
     0
  9
$SPLINETYPE
 70
     6
  9
$SPLINESEGS
 70
     8
  9
$HANDSEED
  5
D2
  9
$SURFTAB1
 70
     6
  9
$SURFTAB2
 70
     6
  9
$SURFTYPE
 70
     6
  9
$SURFU
 70
     6
  9
$SURFV
 70
     6
  9
$UCSBASE
  2

  9
$UCSNAME
  2

  9
$UCSORG
 10
0.0
 20
0.0
 30
0.0
  9
$UCSXDIR
 10
1.0
 20
0.0
 30
0.0
  9
$UCSYDIR
 10
0.0
 20
1.0
 30
0.0
  9
$UCSORTHOREF
  2

  9
$UCSORTHOVIEW
 70
     0
  9
$UCSORGTOP
 10
0.0
 20
0.0
 30
0.0
  9
$UCSORGBOTTOM
 10
0.0
 20
0.0
 30
0.0
  9
$UCSORGLEFT
 10
0.0
 20
0.0
 30
0.0
  9
$UCSORGRIGHT
 10
0.0
 20
0.0
 30
0.0
  9
$UCSORGFRONT
 10
0.0
 20
0.0
 30
0.0
  9
$UCSORGBACK
 10
0.0
 20
0.0
 30
0.0
  9
$PUCSBASE
  2

  9
$PUCSNAME
  2

  9
$PUCSORG
 10
0.0
 20
0.0
 30
0.0
  9
$PUCSXDIR
 10
1.0
 20
0.0
 30
0.0
  9
$PUCSYDIR
 10
0.0
 20
1.0
 30
0.0
  9
$PUCSORTHOREF
  2

  9
$PUCSORTHOVIEW
 70
     0
  9
$PUCSORGTOP
 10
0.0
 20
0.0
 30
0.0
  9
$PUCSORGBOTTOM
 10
0.0
 20
0.0
 30
0.0
  9
$PUCSORGLEFT
 10
0.0
 20
0.0
 30
0.0
  9
$PUCSORGRIGHT
 10
0.0
 20
0.0
 30
0.0
  9
$PUCSORGFRONT
 10
0.0
 20
0.0
 30
0.0
  9
$PUCSORGBACK
 10
0.0
 20
0.0
 30
0.0
  9
$USERI1
 70
     0
  9
$USERI2
 70
     0
  9
$USERI3
 70
     0
  9
$USERI4
 70
     0
  9
$USERI5
 70
     0
  9
$USERR1
 40
0.0
  9
$USERR2
 40
0.0
  9
$USERR3
 40
0.0
  9
$USERR4
 40
0.0
  9
$USERR5
 40
0.0
  9
$WORLDVIEW
 70
     1
  9
$SHADEDGE
 70
     3
  9
$SHADEDIF
 70
    70
  9
$TILEMODE
 70
     1
  9
$MAXACTVP
 70
    64
  9
$PINSBASE
 10
0.0
 20
0.0
 30
0.0
  9
$PLIMCHECK
 70
     0
  9
$PEXTMIN
 10
1.0000000000E+20
 20
1.0000000000E+20
 30
1.0000000000E+20
  9
$PEXTMAX
 10
-1.0000000000E+20
 20
-1.0000000000E+20
 30
-1.0000000000E+20
  9
$PLIMMIN
 10
0.0
 20
0.0
  9
$PLIMMAX
 10
420.0
 20
297.0
  9
$UNITMODE
 70
     0
  9
$VISRETAIN
 70
     1
  9
$PLINEGEN
 70
     0
  9
$PSLTSCALE
 70
     1
  9
$TREEDEPTH
 70
  3020
  9
$CMLSTYLE
  2
Standard
  9
$CMLJUST
 70
     0
  9
$CMLSCALE
 40
20.0
  9
$PROXYGRAPHICS
 70
     1
  9
$MEASUREMENT
 70
     1
  9
$CELWEIGHT
370
    -1
  9
$ENDCAPS
280
     0
  9
$JOINSTYLE
280
     0
  9
$LWDISPLAY
290
     1
  9
$INSUNITS
 70
     4
  9
$HYPERLINKBASE
  1

  9
$STYLESHEET
  1

  9
$XEDIT
290
     1
  9
$CEPSNTYPE
380
     0
  9
$PSTYLEMODE
290
     1
  9
$FINGERPRINTGUID
  2
{a8a80aba-870f-43bc-8a3b-da5e57c21d17}
  9
$VERSIONGUID
  2
{FAEB1C32-E019-11D5-929B-00C0DF256EC4}
  9
$EXTNAMES
290
     1
  9
$PSVPSCALE
 40
0.0
  9
$OLESTARTUP
290
     0
  0
ENDSEC
  0
SECTION
  2
CLASSES
  0
CLASS
  1
ACDBDICTIONARYWDFLT
  2
AcDbDictionaryWithDefault
  3
ObjectDBX Classes
 90
        0
280
     0
281
     0
  0
CLASS
  1
VISUALSTYLE
  2
AcDbVisualStyle
  3
ObjectDBX Classes
 90
     4095
280
     0
281
     0
  0
CLASS
  1
MATERIAL
  2
AcDbMaterial
  3
ObjectDBX Classes
 90
     1153
280
     0
281
     0
  0
CLASS
  1
SCALE
  2
AcDbScale
  3
ObjectDBX Classes
 90
     1153
280
     0
281
     0
  0
CLASS
  1
TABLESTYLE
  2
AcDbTableStyle
  3
ObjectDBX Classes
 90
     4095
280
     0
281
     0
  0
CLASS
  1
MLEADERSTYLE
  2
AcDbMLeaderStyle
  3
ACDB_MLEADERSTYLE_CLASS
 90
     4095
280
     0
281
     0
  0
CLASS
  1
SUN
  2
AcDbSun
  3
SCENEOE
 90
     1153
280
     0
281
     0
  0
CLASS
  1
ACDBPLACEHOLDER
  2
AcDbPlaceHolder
  3
ObjectDBX Classes
 90
        0
280
     0
281
     0
  0
CLASS
  1
LAYOUT
  2
AcDbLayout
  3
ObjectDBX Classes
 90
        0
280
     0
281
     0
  0
ENDSEC
  0
SECTION
  2
TABLES
  0
TABLE
  2
VPORT
  5
8
330
0
100
AcDbSymbolTable
 70
     1
  0
VPORT
  5
29
330
8
100
AcDbSymbolTableRecord
100
AcDbViewportTableRecord
  2
*Active
 70
     0
 10
0.0
 20
0.0
 11
1.0
 21
1.0
 12
139.7
 22
107.95
 13
0.0
 23
0.0
 14
10.0
 24
10.0
 15
10.0
 25
10.0
 16
0.0
 26
0.0
 36
1.0
 17
0.0
 27
0.0
 37
0.0
 40
215.9
 41
1.2941176471
 42
50.0
 43
0.0
 44
0.0
 50
0.0
 51
0.0
 71
     0
 72
  2000
 73
     1
 74
     3
 75
     0
 76
     0
 77
     0
 78
     0
281
     0
 65
     1
110
0.0
120
0.0
130
0.0
111
1.0
121
0.0
131
0.0
112
0.0
122
1.0
132
0.0
 79
     0
146
0.0
  0
ENDTAB
  0
TABLE
  2
LTYPE
  5
5
330
0
100
AcDbSymbolTable
 70
     6
  0
LTYPE
  5
14
330
5
100
AcDbSymbolTableRecord
100
AcDbLinetypeTableRecord
  2
ByBlock
 70
     0
  3

 72
    65
 73
     0
 40
0.0
  0
LTYPE
  5
15
330
5
100
AcDbSymbolTableRecord
100
AcDbLinetypeTableRecord
  2
ByLayer
 70
     0
  3

 72
    65
 73
     0
 40
0.0
  0
LTYPE
  5
16
330
5
100
AcDbSymbolTableRecord
100
AcDbLinetypeTableRecord
  2
Continuous
 70
     0
  3
Solid line
 72
    65
 73
     0
 40
0.0
  0
LTYPE
  5
6E
330
5
100
AcDbSymbolTableRecord
100
AcDbLinetypeTableRecord
  2
HIDDEN
 70
     0
  3
Hidden __ __ __ __ __ __ __ __ __ __ __ __ __ __
 72
    65
 73
     2
 40
1.905
 49
1.27
 74
     0
 49
-0.635
 74
     0
  0
LTYPE
  5
6F
330
5
100
AcDbSymbolTableRecord
100
AcDbLinetypeTableRecord
  2
PHANTOM
 70
     0
  3
Phantom ______  __  __  ______  __  __  ______
 72
    65
 73
     6
 40
12.7
 49
6.35
 74
     0
 49
-1.27
 74
     0
 49
1.27
 74
     0
 49
-1.27
 74
     0
 49
1.27
 74
     0
 49
-1.27
 74
     0
  0
LTYPE
  5
70
330
5
100
AcDbSymbolTableRecord
100
AcDbLinetypeTableRecord
  2
CENTER
 70
     0
  3
Center ____ _ ____ _ ____ _ ____ _ ____ _ ____
 72
    65
 73
     4
 40
10.16
 49
6.35
 74
     0
 49
-1.27
 74
     0
 49
1.27
 74
     0
 49
-1.27
 74
     0
  0
LTYPE
  5
71
330
5
100
AcDbSymbolTableRecord
100
AcDbLinetypeTableRecord
  2
CENTERX2
 70
     0
  3
Center (2x) ________  __  ________  __  _____
 72
    65
 73
     4
 40
20.32
 49
12.7
 74
     0
 49
-2.54
 74
     0
 49
2.54
 74
     0
 49
-2.54
 74
     0
  0
LTYPE
  5
72
330
5
100
AcDbSymbolTableRecord
100
AcDbLinetypeTableRecord
  2
DOT2
 70
     0
  3
Dot (.5x) ........................................
 72
    65
 73
     2
 40
0.635
 49
0.0
 74
     0
 49
-0.635
 74
     0
  0
ENDTAB
  0
TABLE
  2
LAYER
  5
2
330
0
100
AcDbSymbolTable
 70
    17
  0
LAYER
  5
10
330
2
100
AcDbSymbolTableRecord
100
AcDbLayerTableRecord
  2
0
 70
     0
 62
     7
  6
Continuous
370
    -3
390
F
  0
LAYER
  5
73
330
2
100
AcDbSymbolTableRecord
100
AcDbLayerTableRecord
  2
FORMAT
 70
     0
 62
     7
  6
Continuous
370
    -3
390
F
  0
LAYER
  5
74
330
2
100
AcDbSymbolTableRecord
100
AcDbLayerTableRecord
  2
YARDIMCI_GEOMETRI
 70
     0
 62
    -6
  6
Continuous
290
     0
370
    -3
390
F
  0
LAYER
  5
75
330
2
100
AcDbSymbolTableRecord
100
AcDbLayerTableRecord
  2
SAYFA_CERCEVESI
 70
     0
 62
     7
  6
Continuous
370
    25
390
F
  0
LAYER
  5
76
330
2
100
AcDbSymbolTableRecord
100
AcDbLayerTableRecord
  2
ANTET
 70
     0
 62
     7
  6
Continuous
370
    -3
390
F
  0
LAYER
  5
77
330
2
100
AcDbSymbolTableRecord
100
AcDbLayerTableRecord
  2
OLCU
 70
     0
 62
   150
  6
Continuous
370
    -3
390
F
  0
LAYER
  5
78
330
2
100
AcDbSymbolTableRecord
100
AcDbLayerTableRecord
  2
METIN
 70
     0
 62
    96
  6
Continuous
370
    -3
390
F
  0
LAYER
  5
79
330
2
100
AcDbSymbolTableRecord
100
AcDbLayerTableRecord
  2
BALON
 70
     0
 62
     5
  6
Continuous
370
    -3
390
F
  0
LAYER
  5
7A
330
2
100
AcDbSymbolTableRecord
100
AcDbLayerTableRecord
  2
VURGU
 70
     0
 62
     7
  6
Continuous
370
    -3
390
F
  0
LAYER
  5
7B
330
2
100
AcDbSymbolTableRecord
100
AcDbLayerTableRecord
  2
SILIK
 70
     0
 62
     7
  6
Continuous
370
    -3
390
F
  0
LAYER
  5
7C
330
2
100
AcDbSymbolTableRecord
100
AcDbLayerTableRecord
  2
MODEL
 70
     0
 62
     7
  6
Continuous
370
    -3
390
F
  0
LAYER
  5
7D
330
2
100
AcDbSymbolTableRecord
100
AcDbLayerTableRecord
  2
DETAYLANDıRMA
 70
     0
 62
   190
  6
Continuous
370
    -3
390
F
  0
LAYER
  5
7E
330
2
100
AcDbSymbolTableRecord
100
AcDbLayerTableRecord
  2
TOLERANS
 70
     0
 62
   230
  6
Continuous
370
    -3
390
F
  0
LAYER
  5
7F
330
2
100
AcDbSymbolTableRecord
100
AcDbLayerTableRecord
  2
MERKEZ_CIZGILERI
 70
     0
 62
    30
  6
Continuous
370
    -3
390
F
  0
LAYER
  5
80
330
2
100
AcDbSymbolTableRecord
100
AcDbLayerTableRecord
  2
KESIT-DETAY_CIZGILERI
 70
     0
 62
     7
  6
Continuous
370
    -3
390
F
  0
LAYER
  5
81
330
2
100
AcDbSymbolTableRecord
100
AcDbLayerTableRecord
  2
\U+041E\U+0421\U+0415\U+0412\U+042B\U+0415
 70
     0
 62
     7
  6
Continuous
370
    -3
390
F
  0
LAYER
  5
82
330
2
100
AcDbSymbolTableRecord
100
AcDbLayerTableRecord
  2
\U+0412\U+041E\U+0414\U+042F\U+041D\U+042B\U+0415_\U+0417\U+041D\U+0410\U+041A\U+0418
 70
     0
 62
    11
  6
Continuous
370
    -3
390
F
  0
ENDTAB
  0
TABLE
  2
STYLE
  5
3
330
0
100
AcDbSymbolTable
 70
     1
  0
STYLE
  5
11
330
3
100
AcDbSymbolTableRecord
100
AcDbTextStyleTableRecord
  2
Standard
 70
     0
 40
0.0
 41
1.0
 50
0.0
 71
     0
 42
3.5
  3
txt
  4

  0
ENDTAB
  0
TABLE
  2
VIEW
  5
6
330
0
100
AcDbSymbolTable
 70
     0
  0
ENDTAB
  0
TABLE
  2
UCS
  5
7
330
0
100
AcDbSymbolTable
 70
     0
  0
ENDTAB
  0
TABLE
  2
APPID
  5
9
330
0
100
AcDbSymbolTable
 70
     1
  0
APPID
  5
12
330
9
100
AcDbSymbolTableRecord
100
AcDbRegAppTableRecord
  2
ACAD
 70
     0
  0
ENDTAB
  0
TABLE
  2
DIMSTYLE
  5
A
330
0
100
AcDbSymbolTable
 70
     1
100
AcDbDimStyleTable
  0
DIMSTYLE
105
27
330
A
100
AcDbSymbolTableRecord
100
AcDbDimStyleTableRecord
  2
ISO-25
 70
     0
 41
2.5
 42
0.625
 43
3.75
 44
1.25
 73
     0
 74
     0
 77
     1
 78
     8
140
2.5
141
2.5
143
0.0393700787
147
0.625
171
     3
172
     1
178
     0
271
     2
272
     2
274
     3
278
    44
283
     0
284
     8
340
11
  0
ENDTAB
  0
TABLE
  2
BLOCK_RECORD
  5
1
330
0
100
AcDbSymbolTable
 70
     3
  0
BLOCK_RECORD
  5
1F
330
1
100
AcDbSymbolTableRecord
100
AcDbBlockTableRecord
  2
*Model_Space
340
22
  0
BLOCK_RECORD
  5
1B
330
1
100
AcDbSymbolTableRecord
100
AcDbBlockTableRecord
  2
*Paper_Space
340
1E
  0
BLOCK_RECORD
  5
23
330
1
100
AcDbSymbolTableRecord
100
AcDbBlockTableRecord
  2
*Paper_Space0
340
26
  0
BLOCK_RECORD
  5
88
330
1
100
AcDbSymbolTableRecord
100
AcDbBlockTableRecord
  2
SW_CENTERMARKSYMBOL_0
340
0
102
{BLKREFS
331
93
102
}
  0
BLOCK_RECORD
  5
9E
330
1
100
AcDbSymbolTableRecord
100
AcDbBlockTableRecord
  2
SW_CENTERMARKSYMBOL_1
340
0
102
{BLKREFS
331
A9
102
}
  0
ENDTAB
  0
ENDSEC
  0
SECTION
  2
BLOCKS
  0
BLOCK
  5
20
330
1F
100
AcDbEntity
  8
0
100
AcDbBlockBegin
  2
*Model_Space
 70
     0
 10
0.0
 20
0.0
 30
0.0
  3
*Model_Space
  1

  0
ENDBLK
  5
21
330
1F
100
AcDbEntity
  8
0
100
AcDbBlockEnd
  0
BLOCK
  5
1C
330
1B
100
AcDbEntity
 67
     1
  8
0
100
AcDbBlockBegin
  2
*Paper_Space
 70
     0
 10
0.0
 20
0.0
 30
0.0
  3
*Paper_Space
  1

  0
ENDBLK
  5
1D
330
1B
100
AcDbEntity
 67
     1
  8
0
100
AcDbBlockEnd
  0
BLOCK
  5
24
330
23
100
AcDbEntity
  8
0
100
AcDbBlockBegin
  2
*Paper_Space0
 70
     0
 10
0.0
 20
0.0
 30
0.0
  3
*Paper_Space0
  1

  0
ENDBLK
  5
25
330
23
100
AcDbEntity
  8
0
100
AcDbBlockEnd
  0
BLOCK
  5
89
330
88
100
AcDbEntity
  8
0
100
AcDbBlockBegin
  2
SW_CENTERMARKSYMBOL_0
 70
     0
 10
0.0
 20
0.0
 30
0.0
  3
SW_CENTERMARKSYMBOL_0
  1

  0
LINE
  5
8B
330
88
100
AcDbEntity
  8
FORMAT
 62
     0
100
AcDbLine
 10
0.0
 20
0.0
 30
0.0
 11
0.0
 21
2.5
 31
0.0
  0
LINE
  5
8C
330
88
100
AcDbEntity
  8
FORMAT
 62
     0
100
AcDbLine
 10
0.0
 20
0.0
 30
0.0
 11
-2.5
 21
0.0
 31
0.0
  0
LINE
  5
8D
330
88
100
AcDbEntity
  8
FORMAT
 62
     0
100
AcDbLine
 10
0.0
 20
0.0
 30
0.0
 11
0.0
 21
-2.5
 31
0.0
  0
LINE
  5
8E
330
88
100
AcDbEntity
  8
FORMAT
 62
     0
100
AcDbLine
 10
0.0
 20
0.0
 30
0.0
 11
2.5
 21
0.0
 31
0.0
  0
LINE
  5
8F
330
88
100
AcDbEntity
  8
FORMAT
 62
     0
100
AcDbLine
 10
0.0
 20
5.0
 30
0.0
 11
0.0
 21
115.0
 31
0.0
  0
LINE
  5
90
330
88
100
AcDbEntity
  8
FORMAT
 62
     0
100
AcDbLine
 10
-5.0
 20
0.0
 30
0.0
 11
-115.0
 21
0.0
 31
0.0
  0
LINE
  5
91
330
88
100
AcDbEntity
  8
FORMAT
 62
     0
100
AcDbLine
 10
0.0
 20
-5.0
 30
0.0
 11
0.0
 21
-115.0
 31
0.0
  0
LINE
  5
92
330
88
100
AcDbEntity
  8
FORMAT
 62
     0
100
AcDbLine
 10
5.0
 20
0.0
 30
0.0
 11
115.0
 21
0.0
 31
0.0
  0
ENDBLK
  5
8A
330
88
100
AcDbEntity
  8
0
100
AcDbBlockEnd
  0
BLOCK
  5
9F
330
9E
100
AcDbEntity
  8
0
100
AcDbBlockBegin
  2
SW_CENTERMARKSYMBOL_1
 70
     0
 10
0.0
 20
0.0
 30
0.0
  3
SW_CENTERMARKSYMBOL_1
  1

  0
LINE
  5
A1
330
9E
100
AcDbEntity
  8
FORMAT
 62
     0
100
AcDbLine
 10
0.0
 20
0.0
 30
0.0
 11
0.0
 21
2.5
 31
0.0
  0
LINE
  5
A2
330
9E
100
AcDbEntity
  8
FORMAT
 62
     0
100
AcDbLine
 10
0.0
 20
0.0
 30
0.0
 11
-2.5
 21
0.0
 31
0.0
  0
LINE
  5
A3
330
9E
100
AcDbEntity
  8
FORMAT
 62
     0
100
AcDbLine
 10
0.0
 20
0.0
 30
0.0
 11
0.0
 21
-2.5
 31
0.0
  0
LINE
  5
A4
330
9E
100
AcDbEntity
  8
FORMAT
 62
     0
100
AcDbLine
 10
0.0
 20
0.0
 30
0.0
 11
2.5
 21
0.0
 31
0.0
  0
LINE
  5
A5
330
9E
100
AcDbEntity
  8
FORMAT
 62
     0
100
AcDbLine
 10
0.0
 20
5.0
 30
0.0
 11
0.0
 21
115.0
 31
0.0
  0
LINE
  5
A6
330
9E
100
AcDbEntity
  8
FORMAT
 62
     0
100
AcDbLine
 10
-5.0
 20
0.0
 30
0.0
 11
-115.0
 21
0.0
 31
0.0
  0
LINE
  5
A7
330
9E
100
AcDbEntity
  8
FORMAT
 62
     0
100
AcDbLine
 10
0.0
 20
-5.0
 30
0.0
 11
0.0
 21
-115.0
 31
0.0
  0
LINE
  5
A8
330
9E
100
AcDbEntity
  8
FORMAT
 62
     0
100
AcDbLine
 10
5.0
 20
0.0
 30
0.0
 11
115.0
 21
0.0
 31
0.0
  0
ENDBLK
  5
A0
330
9E
100
AcDbEntity
  8
0
100
AcDbBlockEnd
  0
ENDSEC
  0
SECTION
  2
ENTITIES
  0
LINE
  5
83
330
1F
100
AcDbEntity
  8
0
  6
Continuous
 62
     7
370
    25
100
AcDbLine
 10
56.876292092
 20
-2.8747720863
 30
0.0
 11
316.876292092
 21
-2.8747720863
 31
0.0
  0
LINE
  5
84
330
1F
100
AcDbEntity
  8
0
  6
Continuous
 62
     7
370
    25
100
AcDbLine
 10
316.876292092
 20
222.1252279137
 30
0.0
 11
56.876292092
 21
222.1252279137
 31
0.0
  0
CIRCLE
  5
85
330
1F
100
AcDbEntity
  8
0
  6
Continuous
 62
     7
370
    25
100
AcDbCircle
 10
56.876292092
 20
109.6252279137
 30
0.0
 40
91.99999999999999
  0
CIRCLE
  5
86
330
1F
100
AcDbEntity
  8
0
  6
Continuous
 62
     7
370
    25
100
AcDbCircle
 10
56.876292092
 20
109.6252279137
 30
0.0
 40
112.5
  0
LINE
  5
87
330
1F
100
AcDbEntity
  8
0
  6
Continuous
 62
     7
370
    25
100
AcDbLine
 10
316.876292092
 20
222.1252279137
 30
0.0
 11
316.876292092
 21
-2.8747720863
 31
0.0
  0
INSERT
  5
93
330
1F
100
AcDbEntity
  8
FORMAT
 62
     7
100
AcDbBlockReference
  2
SW_CENTERMARKSYMBOL_0
 10
56.876292092
 20
109.6252279137
 30
0.0
  0
LINE
  5
94
330
1F
100
AcDbEntity
  8
0
  6
Continuous
 62
     7
370
    25
100
AcDbLine
 10
-455.7734460579
 20
222.1252279137
 30
0.0
 11
-719.2734460579
 21
222.1252279137
 31
0.0
  0
LINE
  5
95
330
1F
100
AcDbEntity
  8
0
  6
Continuous
 62
     7
370
    25
100
AcDbLine
 10
-192.2734460579
 20
222.1252279137
 30
0.0
 11
-455.7734460579
 21
222.1252279137
 31
0.0
  0
LINE
  5
96
330
1F
100
AcDbEntity
  8
0
  6
Continuous
 62
     7
370
    25
100
AcDbLine
 10
-455.7734460579
 20
-2.8747720863
 30
0.0
 11
-192.2734460579
 21
-2.8747720863
 31
0.0
  0
LINE
  5
97
330
1F
100
AcDbEntity
  8
0
  6
Continuous
 62
     7
370
    25
100
AcDbLine
 10
-719.2734460579
 20
-2.8747720863
 30
0.0
 11
-455.7734460579
 21
-2.8747720863
 31
0.0
  0
CIRCLE
  5
98
330
1F
100
AcDbEntity
  8
0
  6
Continuous
 62
     7
370
    25
100
AcDbCircle
 10
-455.7734460579
 20
109.6252279137
 30
0.0
 40
91.99999999999994
  0
CIRCLE
  5
99
330
1F
100
AcDbEntity
  8
0
  6
Continuous
 62
     7
370
    25
100
AcDbCircle
 10
-455.7734460579
 20
109.6252279137
 30
0.0
 40
112.5
  0
LINE
  5
9A
330
1F
100
AcDbEntity
  8
0
  6
Continuous
 62
     7
370
    25
100
AcDbLine
 10
-719.2734460579
 20
109.6252279137
 30
0.0
 11
-719.2734460579
 21
222.1252279137
 31
0.0
  0
LINE
  5
9B
330
1F
100
AcDbEntity
  8
0
  6
Continuous
 62
     7
370
    25
100
AcDbLine
 10
-719.2734460579
 20
-2.8747720863
 30
0.0
 11
-719.2734460579
 21
109.6252279137
 31
0.0
  0
LINE
  5
9C
330
1F
100
AcDbEntity
  8
0
  6
Continuous
 62
     7
370
    25
100
AcDbLine
 10
-192.2734460579
 20
109.6252279137
 30
0.0
 11
-192.2734460579
 21
222.1252279137
 31
0.0
  0
LINE
  5
9D
330
1F
100
AcDbEntity
  8
0
  6
Continuous
 62
     7
370
    25
100
AcDbLine
 10
-192.2734460579
 20
-2.8747720863
 30
0.0
 11
-192.2734460579
 21
109.6252279137
 31
0.0
  0
INSERT
  5
A9
330
1F
100
AcDbEntity
  8
FORMAT
 62
     7
100
AcDbBlockReference
  2
SW_CENTERMARKSYMBOL_1
 10
-455.7734460579
 20
109.6252279137
 30
0.0
  0
LINE
  5
AA
330
1F
100
AcDbEntity
  8
0
  6
Continuous
 62
     7
370
    25
100
AcDbLine
 10
169.376292092
 20
743.2397064604
 30
0.0
 11
169.376292092
 21
894.2397064604
 31
0.0
  0
LINE
  5
AB
330
1F
100
AcDbEntity
  8
0
  6
Continuous
 62
     7
370
    25
100
AcDbLine
 10
169.376292092
 20
367.2397064604
 30
0.0
 11
169.376292092
 21
518.2397064604
 31
0.0
  0
LINE
  5
AC
330
1F
100
AcDbEntity
  8
0
  6
Continuous
 62
     7
370
    25
100
AcDbLine
 10
-55.623707908
 20
894.2397064604
 30
0.0
 11
-55.623707908
 21
367.2397064604
 31
0.0
  0
LINE
  5
AD
330
1F
100
AcDbEntity
  8
0
  6
Continuous
 62
     7
370
    25
100
AcDbLine
 10
169.376292092
 20
518.2397064604
 30
0.0
 11
316.876292092
 21
518.2397064604
 31
0.0
  0
LINE
  5
AE
330
1F
100
AcDbEntity
  8
0
  6
Continuous
 62
     7
370
    25
100
AcDbLine
 10
316.876292092
 20
743.2397064604
 30
0.0
 11
169.376292092
 21
743.2397064604
 31
0.0
  0
LINE
  5
AF
330
1F
100
AcDbEntity
  8
0
  6
Continuous
 62
     7
370
    25
100
AcDbLine
 10
169.376292092
 20
743.2397064604
 30
0.0
 11
56.876292092
 21
630.7397064604
 31
0.0
  0
LINE
  5
B0
330
1F
100
AcDbEntity
  8
0
  6
Continuous
 62
     7
370
    25
100
AcDbLine
 10
56.876292092
 20
630.7397064604
 30
0.0
 11
169.376292092
 21
518.2397064604
 31
0.0
  0
LINE
  5
B1
330
1F
100
AcDbEntity
  8
0
  6
Continuous
 62
     7
370
    25
100
AcDbLine
 10
-55.623707908
 20
894.2397064604
 30
0.0
 11
169.376292092
 21
894.2397064604
 31
0.0
  0
LINE
  5
B2
330
1F
100
AcDbEntity
  8
0
  6
Continuous
 62
     7
370
    25
100
AcDbLine
 10
-55.623707908
 20
367.2397064604
 30
0.0
 11
169.376292092
 21
367.2397064604
 31
0.0
  0
LINE
  5
B3
330
1F
100
AcDbEntity
  8
0
  6
Continuous
 62
     7
370
    25
100
AcDbLine
 10
316.876292092
 20
743.2397064604
 30
0.0
 11
316.876292092
 21
518.2397064604
 31
0.0
  0
LINE
  5
B4
330
1F
100
AcDbEntity
  8
0
  6
Continuous
 62
     7
370
    25
100
AcDbLine
 10
668.4444512204
 20
-2.8747720863
 30
0.0
 11
931.9444512204
 21
-2.8747720863
 31
0.0
  0
LINE
  5
B5
330
1F
100
AcDbEntity
  8
0
  6
Continuous
 62
     7
370
    25
100
AcDbLine
 10
404.9444512204
 20
-2.8747720863
 30
0.0
 11
668.4444512204
 21
-2.8747720863
 31
0.0
  0
LINE
  5
B6
330
1F
100
AcDbEntity
  8
0
  6
Continuous
 62
     7
370
    25
100
AcDbLine
 10
668.4444512204
 20
222.1252279137
 30
0.0
 11
404.9444512204
 21
222.1252279137
 31
0.0
  0
LINE
  5
B7
330
1F
100
AcDbEntity
  8
0
  6
Continuous
 62
     7
370
    25
100
AcDbLine
 10
931.9444512204
 20
222.1252279137
 30
0.0
 11
668.4444512204
 21
222.1252279137
 31
0.0
  0
LINE
  5
B8
330
1F
100
AcDbEntity
  8
0
  6
Continuous
 62
     7
370
    25
100
AcDbLine
 10
931.9444512204
 20
222.1252279137
 30
0.0
 11
931.9444512204
 21
-2.8747720863
 31
0.0
  0
LINE
  5
B9
330
1F
100
AcDbEntity
  8
0
  6
Continuous
 62
     7
370
    25
100
AcDbLine
 10
404.9444512204
 20
222.1252279137
 30
0.0
 11
404.9444512204
 21
-2.8747720863
 31
0.0
  0
LINE
  5
BA
330
1F
100
AcDbEntity
  8
0
  6
Continuous
 62
     7
370
    25
100
AcDbLine
 10
-55.623707908
 20
-143.3434552272
 30
0.0
 11
-55.623707908
 21
-670.3434552272
 31
0.0
  0
LINE
  5
BB
330
1F
100
AcDbEntity
  8
0
  6
Continuous
 62
     7
370
    25
100
AcDbLine
 10
169.376292092
 20
-294.3434552272
 30
0.0
 11
169.376292092
 21
-143.3434552272
 31
0.0
  0
LINE
  5
BC
330
1F
100
AcDbEntity
  8
0
  6
Continuous
 62
     7
370
    25
100
AcDbLine
 10
169.376292092
 20
-670.3434552272
 30
0.0
 11
169.376292092
 21
-519.3434552272
 31
0.0
  0
LINE
  5
BD
330
1F
100
AcDbEntity
  8
0
  6
Continuous
 62
     7
370
    25
100
AcDbLine
 10
169.376292092
 20
-519.3434552272
 30
0.0
 11
316.876292092
 21
-519.3434552272
 31
0.0
  0
LINE
  5
BE
330
1F
100
AcDbEntity
  8
0
  6
Continuous
 62
     7
370
    25
100
AcDbLine
 10
316.876292092
 20
-294.3434552272
 30
0.0
 11
169.376292092
 21
-294.3434552272
 31
0.0
  0
LINE
  5
BF
330
1F
100
AcDbEntity
  8
0
  6
Continuous
 62
     7
370
    25
100
AcDbLine
 10
56.876292092
 20
-406.8434552272
 30
0.0
 11
169.376292092
 21
-519.3434552272
 31
0.0
  0
LINE
  5
C0
330
1F
100
AcDbEntity
  8
0
  6
Continuous
 62
     7
370
    25
100
AcDbLine
 10
169.376292092
 20
-294.3434552272
 30
0.0
 11
56.876292092
 21
-406.8434552272
 31
0.0
  0
LINE
  5
C1
330
1F
100
AcDbEntity
  8
0
  6
Continuous
 62
     7
370
    25
100
AcDbLine
 10
169.376292092
 20
-670.3434552272
 30
0.0
 11
-55.623707908
 21
-670.3434552272
 31
0.0
  0
LINE
  5
C2
330
1F
100
AcDbEntity
  8
0
  6
Continuous
 62
     7
370
    25
100
AcDbLine
 10
169.376292092
 20
-143.3434552272
 30
0.0
 11
-55.623707908
 21
-143.3434552272
 31
0.0
  0
LINE
  5
C3
330
1F
100
AcDbEntity
  8
0
  6
Continuous
 62
     7
370
    25
100
AcDbLine
 10
316.876292092
 20
-294.3434552272
 30
0.0
 11
316.876292092
 21
-519.3434552272
 31
0.0
  0
LINE
  5
C4
330
1F
100
AcDbEntity
  8
0
  6
Continuous
 62
     7
370
    25
100
AcDbLine
 10
662.6891296125
 20
-242.6064579636
 30
0.0
 11
532.6119214806
 21
-167.5144840867
 31
0.0
  0
LINE
  5
C5
330
1F
100
AcDbEntity
  8
0
  6
Continuous
 62
     7
370
    25
100
AcDbLine
 10
905.2571951659
 20
-382.638021552
 30
0.0
 11
887.7074162555
 21
-372.5067498371
 31
0.0
  0
LINE
  5
C6
330
1F
100
AcDbEntity
  8
0
  6
Continuous
 62
     7
370
    25
100
AcDbLine
 10
420.1210640591
 20
-362.3754781223
 30
0.0
 11
792.7663377444
 21
-577.4990155876
 31
0.0
  0
LINE
  5
C7
330
1F
100
AcDbEntity
  8
0
  6
Continuous
 62
     7
370
    25
100
AcDbLine
 10
775.1799870341
 20
-437.4674519992
 30
0.0
 11
902.7823214318
 21
-363.804192318
 31
0.0
  0
LINE
  5
C8
330
1F
100
AcDbEntity
  8
0
  6
Continuous
 62
     7
370
    25
100
AcDbLine
 10
790.2914640102
 20
-168.9431982824
 30
0.0
 11
662.6891296125
 21
-242.6064579636
 31
0.0
  0
LINE
  5
C9
330
1F
100
AcDbEntity
  8
0
  6
Continuous
 62
     7
370
    25
100
AcDbLine
 10
662.6891296125
 20
-242.6064579636
 30
0.0
 11
662.6891296125
 21
-464.3675911743
 31
0.0
  0
ELLIPSE
  5
CA
330
1F
100
AcDbEntity
  8
0
  6
Continuous
 62
     7
370
    25
100
AcDbEllipse
 10
662.6891296125
 20
-372.5067498371
 30
0.0
 11
159.0990257669732
 21
2.273736754432321E-13
 31
0.0
210
0.0
220
0.0
230
1.0
 40
0.5773815452
 41
4.712388980384698
 42
5.49770587972005
  0
LWPOLYLINE
  5
CB
330
1F
100
AcDbEntity
  8
0
  6
Continuous
 62
     7
370
    25
100
AcDbPolyline
 90
      113
 70
   128
 43
0.0
 10
555.9160056533
 20
-219.0220248145
 10
555.7908595543
 20
-213.9435916623
 10
555.4158150132
 20
-209.02562775
 10
554.7920520589
 20
-204.2836068115
 10
553.9215332804
 20
-199.7324489991
 10
552.8069976519
 20
-195.386473939
 10
551.4519519147
 20
-191.2593556766
 10
549.8606595441
 20
-187.3640796529
 10
548.0381273347
 20
-183.7129018473
 10
545.9900896469
 20
-180.317310216
 10
543.7229903651
 20
-177.1879885466
 10
541.2439626224
 20
-174.3347828427
 10
538.5608063571
 20
-171.7666703451
 10
535.6819637717
 20
-169.4917312858
 10
532.6164927698
 20
-167.5171234647
 10
529.3740384575
 20
-165.8490597286
 10
525.9648027955
 20
-164.4927884231
 10
522.3995125006
 20
-163.4525768795
 10
518.689385295
 20
-162.7316979882
 10
514.8460946116
 20
-162.3324199008
 10
510.8817328647
 20
-162.255998894
 10
506.8087734031
 20
-162.5026754164
 10
502.640031264
 20
-163.0716733326
 10
498.3886228525
 20
-163.9612023645
 10
494.0679246724
 20
-165.1684637247
 10
489.6915312387
 20
-166.6896589224
 10
485.2732123041
 20
-168.5200017146
 10
480.8268695347
 20
-170.6537331658
 10
476.3664927698
 20
-173.0841397673
 10
471.906116005
 20
-175.803574561
 10
467.4597732356
 20
-178.8034811988
 10
463.041454301
 20
-182.0744208646
 10
458.6650608672
 20
-185.6061019721
 10
454.3443626871
 20
-189.3874125459
 10
450.0929542757
 20
-193.4064551839
 10
445.9242121366
 20
-197.6505844913
 10
441.851252675
 20
-202.1064468669
 10
437.8868909281
 20
-206.7600225192
 10
434.0436002447
 20
-211.5966695776
 10
430.3334730391
 20
-216.601170161
 10
426.7681827442
 20
-221.7577782591
 10
423.3589470822
 20
-227.0502692752
 10
420.1164927698
 20
-232.4619910743
 10
417.051021768
 20
-237.9759163776
 10
414.1721791825
 20
-243.5746963362
 10
411.4890229173
 20
-249.2407151168
 10
409.0099951746
 20
-254.9561453283
 10
406.7428958928
 20
-260.7030041127
 10
404.694858205
 20
-266.463209726
 10
402.8723259955
 20
-272.2186384304
 10
401.281033625
 20
-277.9511815179
 10
399.9259878878
 20
-283.642802287
 10
398.8114522593
 20
-289.2755927932
 10
397.9409334808
 20
-294.8318301935
 10
397.3171705265
 20
-300.2940325096
 10
396.9421259854
 20
-305.645013632
 10
396.8169798864
 20
-310.8679373945
 10
396.9421259854
 20
-315.9463705467
 10
397.3171705265
 20
-320.864334459
 10
397.9409334808
 20
-325.6063553975
 10
398.8114522593
 20
-330.1575132099
 10
399.9259878878
 20
-334.50348827
 10
401.281033625
 20
-338.6306065324
 10
402.8723259955
 20
-342.5258825561
 10
404.694858205
 20
-346.1770603617
 10
406.7428958928
 20
-349.572651993
 10
409.0099951746
 20
-352.7019736624
 10
411.4890229173
 20
-355.5551793663
 10
414.1721791825
 20
-358.1232918639
 10
417.051021768
 20
-360.3982309232
 10
420.1164927698
 20
-362.3728387443
 10
423.3589470822
 20
-364.0409024804
 10
426.7681827442
 20
-365.3971737859
 10
430.3334730391
 20
-366.4373853295
 10
434.0436002447
 20
-367.1582642208
 10
437.8868909281
 20
-367.5575423082
 10
441.851252675
 20
-367.633963315
 10
445.9242121366
 20
-367.3872867926
 10
450.0929542757
 20
-366.8182888764
 10
454.3443626871
 20
-365.9287598445
 10
458.6650608672
 20
-364.7214984843
 10
463.041454301
 20
-363.2003032866
 10
467.4597732356
 20
-361.3699604944
 10
471.906116005
 20
-359.2362290432
 10
476.3664927698
 20
-356.8058224416
 10
480.8268695347
 20
-354.086387648
 10
485.2732123041
 20
-351.0864810102
 10
489.6915312387
 20
-347.8155413444
 10
494.0679246724
 20
-344.2838602369
 10
498.3886228525
 20
-340.5025496631
 10
502.640031264
 20
-336.4835070251
 10
506.8087734031
 20
-332.2393777177
 10
510.8817328647
 20
-327.7835153421
 10
514.8460946116
 20
-323.1299396898
 10
518.689385295
 20
-318.2932926314
 10
522.3995125006
 20
-313.288792048
 10
525.9648027955
 20
-308.1321839498
 10
529.3740384575
 20
-302.8396929338
 10
532.6164927698
 20
-297.4279711347
 10
535.6819637717
 20
-291.9140458314
 10
538.5608063571
 20
-286.3152658728
 10
541.2439626224
 20
-280.6492470922
 10
543.7229903651
 20
-274.9338168807
 10
545.9900896469
 20
-269.1869580963
 10
548.0381273347
 20
-263.426752483
 10
549.8606595441
 20
-257.6713237786
 10
551.4519519147
 20
-251.9387806911
 10
552.8069976519
 20
-246.247159922
 10
553.9215332804
 20
-240.6143694158
 10
554.7920520589
 20
-235.0581320155
 10
555.4158150132
 20
-229.5959296994
 10
555.7908595543
 20
-224.244948577
 10
555.9160056533
 20
-219.0220248145
  0
LWPOLYLINE
  5
CC
330
1F
100
AcDbEntity
  8
0
  6
Continuous
 62
     7
370
    25
100
AcDbPolyline
 90
       16
 70
   128
 43
0.0
 10
928.5612793386
 20
-434.1455622798
 10
928.4361332396
 20
-429.0671291276
 10
928.0610886985
 20
-424.1491652153
 10
927.4373257442
 20
-419.4071442768
 10
926.5668069657
 20
-414.8559864644
 10
925.4522713372
 20
-410.5100114043
 10
924.0972256
 20
-406.3828931419
 10
922.5059332294
 20
-402.4876171182
 10
920.68340102
 20
-398.8364393126
 10
918.6353633322
 20
-395.4408476813
 10
916.3682640504
 20
-392.3115260119
 10
913.8892363077
 20
-389.458320308
 10
911.2060800425
 20
-386.8902078104
 10
908.327237457
 20
-384.615268751
 10
905.2617664552
 20
-382.64066093
 10
905.2571951659
 20
-382.638021552
  0
LWPOLYLINE
  5
CD
330
1F
100
AcDbEntity
  8
0
  6
Continuous
 62
     7
370
    25
100
AcDbPolyline
 90
       43
 70
   128
 43
0.0
 10
792.7663377444
 20
-577.4990155876
 10
796.0042207675
 20
-579.1644399457
 10
799.4134564295
 20
-580.5207112512
 10
802.9787467244
 20
-581.5609227948
 10
806.68887393
 20
-582.2818016861
 10
810.5321646134
 20
-582.6810797735
 10
814.4965263603
 20
-582.7575007803
 10
818.5694858219
 20
-582.5108242579
 10
822.738227961
 20
-581.9418263417
 10
826.9896363725
 20
-581.0522973098
 10
831.3103345525
 20
-579.8450359496
 10
835.6867279863
 20
-578.3238407519
 10
840.1050469209
 20
-576.4934979597
 10
844.5513896903
 20
-574.3597665085
 10
849.0117664552
 20
-571.9293599069
 10
853.47214322
 20
-569.2099251132
 10
857.9184859894
 20
-566.2100184754
 10
862.336804924
 20
-562.9390788096
 10
866.7131983578
 20
-559.4073977022
 10
871.0338965379
 20
-555.6260871284
 10
875.2853049493
 20
-551.6070444903
 10
879.4540470884
 20
-547.362915183
 10
883.52700655
 20
-542.9070528074
 10
887.4913682969
 20
-538.2534771551
 10
891.3346589803
 20
-533.4168300967
 10
895.0447861859
 20
-528.4123295133
 10
898.6100764808
 20
-523.2557214151
 10
902.0193121428
 20
-517.9632303991
 10
905.2617664552
 20
-512.5515086
 10
908.327237457
 20
-507.0375832966
 10
911.2060800425
 20
-501.4388033381
 10
913.8892363077
 20
-495.7727845574
 10
916.3682640504
 20
-490.057354346
 10
918.6353633322
 20
-484.3104955616
 10
920.68340102
 20
-478.5502899483
 10
922.5059332294
 20
-472.7948612439
 10
924.0972256
 20
-467.0623181564
 10
925.4522713372
 20
-461.3706973872
 10
926.5668069657
 20
-455.7379068811
 10
927.4373257442
 20
-450.1816694807
 10
928.0610886985
 20
-444.7194671647
 10
928.4361332396
 20
-439.3684860423
 10
928.5612793386
 20
-434.1455622798
  0
LWPOLYLINE
  5
CE
330
1F
100
AcDbEntity
  8
0
  6
Continuous
 62
     7
370
    25
100
AcDbPolyline
 90
      102
 70
   128
 43
0.0
 10
541.420316639
 20
-227.3902079606
 10
541.2944763356
 20
-222.792561769
 10
540.9174422772
 20
-218.3579950988
 10
540.2906731353
 20
-214.1036644273
 10
539.4165937579
 20
-210.0460289331
 10
538.2985857884
 20
-206.2007868198
 10
536.9409745824
 20
-202.5828145822
 10
535.3490124738
 20
-199.2061094519
 10
533.5288584549
 20
-196.0837352451
 10
531.4875543479
 20
-193.227771821
 10
529.2329975619
 20
-190.6492683474
 10
526.7739105391
 20
-188.3582005532
 10
524.1198070094
 20
-186.3634321347
 10
521.2809551839
 20
-184.6726804633
 10
518.2683380286
 20
-183.2924867289
 10
515.0936107742
 20
-182.2281906327
 10
511.7690558237
 20
-181.4839097298
 10
508.3075352343
 20
-181.0625234982
 10
504.7224409566
 20
-180.9656621995
 10
501.0276430241
 20
-181.1937005713
 10
497.2374358921
 20
-181.7457563773
 10
493.3664831357
 20
-182.6196938208
 10
489.4297607191
 20
-183.8121318078
 10
485.4424990565
 20
-185.3184570273
 10
481.4201240889
 20
-187.1328417996
 10
477.3781976034
 20
-189.2482666225
 10
473.3323570284
 20
-191.6565473283
 10
469.2982549352
 20
-194.3483667469
 10
465.291498481
 20
-197.3133107519
 10
461.3275890283
 20
-200.5399085508
 10
457.4218621725
 20
-204.0156770636
 10
453.5894284122
 20
-207.7271692172
 10
449.8451146891
 20
-211.6600259695
 10
446.2034070255
 20
-215.7990318617
 10
442.678394481
 20
-220.128173884
 10
439.2837146443
 20
-224.630703427
 10
436.0325008721
 20
-229.2892010786
 10
432.9373314791
 20
-234.0856440164
 10
430.0101810742
 20
-239.0014757345
 10
427.2623742338
 20
-244.0176778348
 10
424.7045416886
 20
-249.114843606
 10
422.346579196
 20
-254.2732531039
 10
420.1976092547
 20
-259.4729494443
 10
418.2659458119
 20
-264.6938160121
 10
416.5590620983
 20
-269.9156542889
 10
415.0835617153
 20
-275.1182619968
 10
413.8451530874
 20
-280.2815112572
 10
412.8486273768
 20
-285.3854264619
 10
412.097839948
 20
-290.4102615543
 10
411.5956954516
 20
-295.3365764238
 10
411.3441365873
 20
-300.1453121151
 10
411.3441365873
 20
-304.817864564
 10
411.5956954516
 20
-309.3361565727
 10
412.097839948
 20
-313.6827077474
 10
412.8486273768
 20
-317.8407021258
 10
413.8451530874
 20
-321.7940532354
 10
415.0835617153
 20
-325.5274663289
 10
416.5590620983
 20
-329.0264975562
 10
418.2659458119
 20
-332.2776098454
 10
420.1976092547
 20
-335.2682252744
 10
422.346579196
 20
-337.9867737333
 10
424.7045416886
 20
-340.4227376861
 10
427.2623742338
 20
-342.5666928615
 10
430.0101810742
 20
-344.4103447135
 10
432.9373314791
 20
-345.9465605112
 10
436.0325008721
 20
-347.1693969342
 10
439.2837146443
 20
-348.0741230658
 10
442.678394481
 20
-348.6572386964
 10
446.2034070255
 20
-348.9164878649
 10
449.8451146891
 20
-348.8508675867
 10
453.5894284122
 20
-348.4606317338
 10
457.4218621725
 20
-347.747290053
 10
461.3275890283
 20
-346.7136023247
 10
465.291498481
 20
-345.3635676858
 10
469.2982549352
 20
-343.7024091582
 10
473.3323570284
 20
-341.7365534413
 10
477.3781976034
 20
-339.4736060492
 10
481.4201240889
 20
-336.9223218857
 10
485.4424990565
 20
-334.0925713735
 10
489.4297607191
 20
-330.9953022676
 10
493.3664831357
 20
-327.6424973006
 10
497.2374358921
 20
-324.0471278235
 10
501.0276430241
 20
-320.2231036223
 10
504.7224409567
 20
-316.1852191039
 10
508.3075352343
 20
-311.9490960589
 10
511.7690558237
 20
-307.5311232245
 10
515.0936107742
 20
-302.9483928794
 10
518.2683380286
 20
-298.2186347169
 10
521.2809551839
 20
-293.3601472526
 10
524.1198070094
 20
-288.3917270305
 10
526.7739105391
 20
-283.3325959035
 10
529.2329975619
 20
-278.2023266668
 10
531.4875543479
 20
-273.0207673357
 10
533.5288584549
 20
-267.8079643565
 10
535.3490124738
 20
-262.5840850512
 10
536.9409745824
 20
-257.3693395942
 10
538.2985857884
 20
-252.1839028224
 10
539.4165937579
 20
-247.0478361835
 10
540.2906731353
 20
-241.9810101215
 10
540.9174422772
 20
-237.003027202
 10
541.2944763356
 20
-232.133146274
 10
541.420316639
 20
-227.3902079606
  0
LWPOLYLINE
  5
CF
330
1F
100
AcDbEntity
  8
0
  6
Continuous
 62
     7
370
    25
100
AcDbPolyline
 90
      113
 70
   128
 43
0.0
 10
926.0864056045
 20
-312.2966515902
 10
925.9612595055
 20
-307.0737278277
 10
925.5862149644
 20
-301.7227467053
 10
924.9624520101
 20
-296.2605443892
 10
924.0919332316
 20
-290.7043069889
 10
922.977397603
 20
-285.0715164827
 10
921.6223518659
 20
-279.3798957136
 10
920.0310594953
 20
-273.6473526261
 10
918.2085272858
 20
-267.8919239217
 10
916.1604895981
 20
-262.1317183084
 10
913.8933903163
 20
-256.384859524
 10
911.4143625735
 20
-250.6694293125
 10
908.7312063083
 20
-245.0034105319
 10
905.8523637228
 20
-239.4046305733
 10
902.786892721
 20
-233.89070527
 10
899.5444384087
 20
-228.4789834709
 10
896.1352027467
 20
-223.1864924548
 10
892.5699124518
 20
-218.0298843567
 10
888.8597852462
 20
-213.0253837733
 10
885.0164945628
 20
-208.1887367149
 10
881.0521328159
 20
-203.5351610625
 10
876.9791733542
 20
-199.0792986869
 10
872.8104312151
 20
-194.8351693796
 10
868.5590228037
 20
-190.8161267416
 10
864.2383246236
 20
-187.0348161678
 10
859.8619311898
 20
-183.5031350603
 10
855.4436122553
 20
-180.2321953945
 10
850.9972694859
 20
-177.2322887567
 10
846.536892721
 20
-174.512853963
 10
842.0765159561
 20
-172.0824473614
 10
837.6301731867
 20
-169.9487159103
 10
833.2118542522
 20
-168.1183731181
 10
828.8354608184
 20
-166.5971779204
 10
824.5147626383
 20
-165.3899165602
 10
820.2633542268
 20
-164.5003875283
 10
816.0946120878
 20
-163.9313896121
 10
812.0216526261
 20
-163.6847130896
 10
808.0572908792
 20
-163.7611340965
 10
804.2140001958
 20
-164.1604121838
 10
800.5038729902
 20
-164.8812910752
 10
796.9385826953
 20
-165.9215026188
 10
793.5293470333
 20
-167.2777739243
 10
790.286892721
 20
-168.9458376604
 10
787.2214217192
 20
-170.9204454815
 10
784.3425791337
 20
-173.1953845408
 10
781.6594228685
 20
-175.7634970384
 10
779.1803951257
 20
-178.6167027423
 10
776.9132958439
 20
-181.7460244117
 10
774.8652581562
 20
-185.141616043
 10
773.0427259467
 20
-188.7927938486
 10
771.4514335761
 20
-192.6880698723
 10
770.096387839
 20
-196.8151881347
 10
768.9818522104
 20
-201.1611631948
 10
768.1113334319
 20
-205.7123210072
 10
767.4875704776
 20
-210.4543419457
 10
767.1125259365
 20
-215.372305858
 10
766.9873798375
 20
-220.4507390102
 10
767.1125259365
 20
-225.6736627727
 10
767.4875704776
 20
-231.0246438951
 10
768.1113334319
 20
-236.4868462111
 10
768.9818522104
 20
-242.0430836115
 10
770.096387839
 20
-247.6758741177
 10
771.4514335761
 20
-253.3674948868
 10
773.0427259467
 20
-259.1000379743
 10
774.8652581562
 20
-264.8554666787
 10
776.9132958439
 20
-270.615672292
 10
779.1803951257
 20
-276.3625310764
 10
781.6594228685
 20
-282.0779612878
 10
784.3425791337
 20
-287.7439800685
 10
787.2214217192
 20
-293.3427600271
 10
790.286892721
 20
-298.8566853304
 10
793.5293470333
 20
-304.2684071295
 10
796.9385826953
 20
-309.5608981455
 10
800.5038729902
 20
-314.7175062437
 10
804.2140001958
 20
-319.7220068271
 10
808.0572908792
 20
-324.5586538855
 10
812.0216526261
 20
-329.2122295378
 10
816.0946120878
 20
-333.6680919134
 10
820.2633542269
 20
-337.9122212207
 10
824.5147626383
 20
-341.9312638588
 10
828.8354608184
 20
-345.7125744326
 10
833.2118542522
 20
-349.24425554
 10
837.6301731867
 20
-352.5151952058
 10
842.0765159561
 20
-355.5151018437
 10
846.536892721
 20
-358.2345366373
 10
850.9972694859
 20
-360.6649432389
 10
855.4436122553
 20
-362.7986746901
 10
859.8619311898
 20
-364.6290174823
 10
864.2383246236
 20
-366.15021268
 10
868.5590228037
 20
-367.3574740402
 10
872.8104312151
 20
-368.2470030721
 10
876.9791733542
 20
-368.8160009883
 10
881.0521328159
 20
-369.0626775107
 10
885.0164945628
 20
-368.9862565039
 10
888.8597852462
 20
-368.5869784165
 10
892.5699124518
 20
-367.8660995252
 10
896.1352027467
 20
-366.8258879816
 10
899.5444384087
 20
-365.4696166761
 10
902.786892721
 20
-363.80155294
 10
905.8523637228
 20
-361.8269451189
 10
908.7312063083
 20
-359.5520060596
 10
911.4143625735
 20
-356.983893562
 10
913.8933903163
 20
-354.1306878581
 10
916.1604895981
 20
-351.0013661887
 10
918.2085272858
 20
-347.6057745574
 10
920.0310594953
 20
-343.9545967518
 10
921.6223518659
 20
-340.0593207281
 10
922.977397603
 20
-335.9322024657
 10
924.0919332316
 20
-331.5862274056
 10
924.9624520101
 20
-327.0350695932
 10
925.5862149644
 20
-322.2930486547
 10
925.9612595055
 20
-317.3750847424
 10
926.0864056045
 20
-312.2966515902
  0
LWPOLYLINE
  5
D0
330
1F
100
AcDbEntity
  8
0
  6
Continuous
 62
     7
370
    25
100
AcDbPolyline
 90
      102
 70
   128
 43
0.0
 10
911.5907165902
 20
-303.928468444
 10
911.4648762868
 20
-299.1855301307
 10
911.0878422284
 20
-294.3156492027
 10
910.4610730865
 20
-289.3376662832
 10
909.5869937091
 20
-284.2708402212
 10
908.4689857396
 20
-279.1347735822
 10
907.1113745335
 20
-273.9493368105
 10
905.519412425
 20
-268.7345913534
 10
903.6992584061
 20
-263.5107120482
 10
901.6579542991
 20
-258.297909069
 10
899.4033975131
 20
-253.1163497379
 10
896.9443104902
 20
-247.9860805012
 10
894.2902069606
 20
-242.9269493741
 10
891.451355135
 20
-237.9585291521
 10
888.4387379798
 20
-233.1000416878
 10
885.2640107254
 20
-228.3702835253
 10
881.9394557749
 20
-223.7875531801
 10
878.4779351854
 20
-219.3695803458
 10
874.8928409078
 20
-215.1334573008
 10
871.1980429753
 20
-211.0955727823
 10
867.4078358433
 20
-207.2715485812
 10
863.5368830868
 20
-203.6761791041
 10
859.6001606702
 20
-200.323374137
 10
855.6128990077
 20
-197.2261050312
 10
851.59052404
 20
-194.396354519
 10
847.5485975545
 20
-191.8450703554
 10
843.5027569795
 20
-189.5821229633
 10
839.4686548863
 20
-187.6162672465
 10
835.4618984322
 20
-185.9551087188
 10
831.4979889794
 20
-184.60507408
 10
827.5922621237
 20
-183.5713863516
 10
823.7598283634
 20
-182.8580446708
 10
820.0155146402
 20
-182.467808818
 10
816.3738069767
 20
-182.4021885398
 10
812.8487944322
 20
-182.6614377083
 10
809.4541145954
 20
-183.2445533389
 10
806.2029008233
 20
-184.1492794705
 10
803.1077314302
 20
-185.3721158935
 10
800.1805810254
 20
-186.9083316912
 10
797.4327741849
 20
-188.7519835432
 10
794.8749416398
 20
-190.8959387186
 10
792.5169791471
 20
-193.3319026714
 10
790.3680092058
 20
-196.0504511303
 10
788.4363457631
 20
-199.0410665593
 10
786.7294620495
 20
-202.2921788484
 10
785.2539616665
 20
-205.7912100758
 10
784.0155530385
 20
-209.5246231693
 10
783.0190273279
 20
-213.4779742789
 10
782.2682398991
 20
-217.6359686573
 10
781.7660954028
 20
-221.9825198319
 10
781.5145365384
 20
-226.5008118407
 10
781.5145365384
 20
-231.1733642896
 10
781.7660954028
 20
-235.9820999808
 10
782.2682398991
 20
-240.9084148503
 10
783.0190273279
 20
-245.9332499428
 10
784.0155530385
 20
-251.0371651475
 10
785.2539616665
 20
-256.2004144079
 10
786.7294620495
 20
-261.4030221158
 10
788.4363457631
 20
-266.6248603925
 10
790.3680092058
 20
-271.8457269604
 10
792.5169791471
 20
-277.0454233008
 10
794.8749416398
 20
-282.2038327987
 10
797.4327741849
 20
-287.3009985699
 10
800.1805810254
 20
-292.3172006702
 10
803.1077314302
 20
-297.2330323882
 10
806.2029008233
 20
-302.029475326
 10
809.4541145954
 20
-306.6879729777
 10
812.8487944322
 20
-311.1905025207
 10
816.3738069767
 20
-315.519644543
 10
820.0155146402
 20
-319.6586504352
 10
823.7598283634
 20
-323.5915071874
 10
827.5922621237
 20
-327.3029993411
 10
831.4979889794
 20
-330.7787678539
 10
835.4618984322
 20
-334.0053656528
 10
839.4686548863
 20
-336.9703096578
 10
843.5027569795
 20
-339.6621290764
 10
847.5485975545
 20
-342.0704097822
 10
851.59052404
 20
-344.1858346051
 10
855.6128990077
 20
-346.0002193774
 10
859.6001606702
 20
-347.5065445969
 10
863.5368830868
 20
-348.6989825838
 10
867.4078358433
 20
-349.5729200274
 10
871.1980429753
 20
-350.1249758334
 10
874.8928409078
 20
-350.3530142051
 10
878.4779351854
 20
-350.2561529065
 10
881.9394557749
 20
-349.8347666749
 10
885.2640107254
 20
-349.0904857719
 10
888.4387379798
 20
-348.0261896758
 10
891.451355135
 20
-346.6459959413
 10
894.2902069606
 20
-344.95524427
 10
896.9443104902
 20
-342.9604758514
 10
899.4033975131
 20
-340.6694080573
 10
901.6579542991
 20
-338.0909045836
 10
903.6992584061
 20
-335.2349411596
 10
905.519412425
 20
-332.1125669528
 10
907.1113745335
 20
-328.7358618225
 10
908.4689857396
 20
-325.1178895849
 10
909.5869937091
 20
-321.2726474716
 10
910.4610730865
 20
-317.2150119774
 10
911.0878422284
 20
-312.9606813058
 10
911.4648762868
 20
-308.5261146357
 10
911.5907165902
 20
-303.928468444
  0
ENDSEC
  0
SECTION
  2
OBJECTS
  0
DICTIONARY
  5
C
330
0
100
AcDbDictionary
281
     1
  3
ACAD_GROUP
350
D
  3
ACAD_LAYOUT
350
1A
  3
ACAD_MLINESTYLE
350
17
  3
ACAD_PLOTSETTINGS
350
19
  3
ACAD_PLOTSTYLENAME
350
E
  3
ACAD_SCALELIST
350
47
  3
DWGPROPS
350
D1
  0
DICTIONARY
  5
D
102
{ACAD_REACTORS
330
C
102
}
330
C
100
AcDbDictionary
281
     1
  0
DICTIONARY
  5
1A
102
{ACAD_REACTORS
330
C
102
}
330
C
100
AcDbDictionary
281
     1
  3
Layout1
350
1E
  3
Layout2
350
26
  3
Model
350
22
  0
DICTIONARY
  5
17
102
{ACAD_REACTORS
330
C
102
}
330
C
100
AcDbDictionary
281
     1
  3
Standard
350
18
  0
DICTIONARY
  5
19
102
{ACAD_REACTORS
330
C
102
}
330
C
100
AcDbDictionary
281
     1
  0
ACDBDICTIONARYWDFLT
  5
E
102
{ACAD_REACTORS
330
C
102
}
330
C
100
AcDbDictionary
281
     1
  3
Normal
350
F
100
AcDbDictionaryWithDefault
340
F
  0
DICTIONARY
  5
47
102
{ACAD_REACTORS
330
C
102
}
330
C
100
AcDbDictionary
281
     1
  3
A0
350
48
  3
A1
350
49
  3
A2
350
4A
  3
A3
350
4B
  3
A4
350
4C
  3
A5
350
4D
  3
A6
350
4E
  3
A7
350
4F
  3
A8
350
50
  3
A9
350
51
  3
B0
350
52
  3
B1
350
53
  3
B2
350
54
  3
B3
350
55
  3
B4
350
56
  3
B5
350
57
  3
B6
350
58
  3
B7
350
59
  3
B8
350
5A
  3
B9
350
5B
  3
C0
350
5C
  3
C1
350
5D
  3
C2
350
5E
  3
C3
350
5F
  3
C4
350
60
  3
C5
350
61
  3
C6
350
62
  3
C7
350
63
  3
C8
350
64
  3
C9
350
65
  3
D0
350
66
  3
D1
350
67
  3
D2
350
68
  0
XRECORD
  5
D1
102
{ACAD_REACTORS
330
C
102
}
330
C
100
AcDbXrecord
280
     1
  1
DWGPROPS COOKIE
  2

  3

  4

  6

  7

  8
b.kav
  9

300
=
301
=
302
=
303
=
304
=
305
=
306
=
307
=
308
=
309
=
 40
0.0
 41
2460608.405371088
 42
2460608.405371215
  1

 90
        0
  0
LAYOUT
  5
1E
102
{ACAD_REACTORS
330
1A
102
}
330
1A
100
AcDbPlotSettings
  1

  2
none_device
  4

  6

 40
0.0
 41
0.0
 42
0.0
 43
0.0
 44
0.0
 45
0.0
 46
0.0
 47
0.0
 48
0.0
 49
0.0
140
0.0
141
0.0
142
1.0
143
1.0
 70
   688
 72
     1
 73
     0
 74
     5
  7

 75
    16
147
1.0
148
0.0
149
0.0
100
AcDbLayout
  1
Layout1
 70
     1
 71
     1
 10
0.0
 20
0.0
 11
420.0
 21
297.0
 12
0.0
 22
0.0
 32
0.0
 14
1.0000000000E+20
 24
1.0000000000E+20
 34
1.0000000000E+20
 15
-1.0000000000E+20
 25
-1.0000000000E+20
 35
-1.0000000000E+20
146
0.0
 13
0.0
 23
0.0
 33
0.0
 16
1.0
 26
0.0
 36
0.0
 17
0.0
 27
1.0
 37
0.0
 76
     0
330
1B
  0
LAYOUT
  5
26
102
{ACAD_REACTORS
330
1A
102
}
330
1A
100
AcDbPlotSettings
  1

  2
none_device
  4

  6

 40
0.0
 41
0.0
 42
0.0
 43
0.0
 44
0.0
 45
0.0
 46
0.0
 47
0.0
 48
0.0
 49
0.0
140
0.0
141
0.0
142
1.0
143
1.0
 70
   688
 72
     1
 73
     0
 74
     5
  7

 75
    16
147
1.0
148
0.0
149
0.0
100
AcDbLayout
  1
Layout2
 70
     1
 71
     2
 10
0.0
 20
0.0
 11
0.0
 21
0.0
 12
0.0
 22
0.0
 32
0.0
 14
0.0
 24
0.0
 34
0.0
 15
0.0
 25
0.0
 35
0.0
146
0.0
 13
0.0
 23
0.0
 33
0.0
 16
1.0
 26
0.0
 36
0.0
 17
0.0
 27
1.0
 37
0.0
 76
     0
330
23
  0
LAYOUT
  5
22
102
{ACAD_REACTORS
330
1A
102
}
330
1A
100
AcDbPlotSettings
  1

  2
none_device
  4
Letter_(8.50_x_11.00_Inches)
  6

 40
6.35
 41
6.35
 42
6.35000508
 43
6.35000508
 44
215.9
 45
279.4
 46
0.0
 47
0.0
 48
0.0
 49
0.0
140
0.0
141
0.0
142
1.0
143
1.0
 70
  1712
 72
     1
 73
     0
 74
     0
  7

 75
     0
147
1.0
148
0.0
149
0.0
100
AcDbLayout
  1
Model
 70
     1
 71
     0
 10
0.0
 20
0.0
 11
279.4
 21
215.9
 12
0.0
 22
0.0
 32
0.0
 14
0.0
 24
0.0
 34
0.0
 15
279.4
 25
215.9
 35
0.0
146
0.0
 13
0.0
 23
0.0
 33
0.0
 16
1.0
 26
0.0
 36
0.0
 17
0.0
 27
1.0
 37
0.0
 76
     0
330
1F
331
29
  0
MLINESTYLE
  5
18
102
{ACAD_REACTORS
330
17
102
}
330
17
100
AcDbMlineStyle
  2
Standard
 70
     0
  3

 62
   256
 51
90.0
 52
90.0
 71
     2
 49
0.5
 62
   256
  6
BYLAYER
 49
-0.5
 62
   256
  6
BYLAYER
  0
ACDBPLACEHOLDER
  5
F
102
{ACAD_REACTORS
330
E
102
}
330
E
  0
SCALE
  5
48
102
{ACAD_REACTORS
330
47
102
}
330
47
100
AcDbScale
 70
     0
300
1:1
140
1.0
141
1.0
290
     1
  0
SCALE
  5
49
102
{ACAD_REACTORS
330
47
102
}
330
47
100
AcDbScale
 70
     0
300
1:2
140
1.0
141
2.0
290
     0
  0
SCALE
  5
4A
102
{ACAD_REACTORS
330
47
102
}
330
47
100
AcDbScale
 70
     0
300
1:4
140
1.0
141
4.0
290
     0
  0
SCALE
  5
4B
102
{ACAD_REACTORS
330
47
102
}
330
47
100
AcDbScale
 70
     0
300
1:5
140
1.0
141
5.0
290
     0
  0
SCALE
  5
4C
102
{ACAD_REACTORS
330
47
102
}
330
47
100
AcDbScale
 70
     0
300
1:8
140
1.0
141
8.0
290
     0
  0
SCALE
  5
4D
102
{ACAD_REACTORS
330
47
102
}
330
47
100
AcDbScale
 70
     0
300
1:10
140
1.0
141
10.0
290
     0
  0
SCALE
  5
4E
102
{ACAD_REACTORS
330
47
102
}
330
47
100
AcDbScale
 70
     0
300
1:16
140
1.0
141
16.0
290
     0
  0
SCALE
  5
4F
102
{ACAD_REACTORS
330
47
102
}
330
47
100
AcDbScale
 70
     0
300
1:20
140
1.0
141
20.0
290
     0
  0
SCALE
  5
50
102
{ACAD_REACTORS
330
47
102
}
330
47
100
AcDbScale
 70
     0
300
1:30
140
1.0
141
30.0
290
     0
  0
SCALE
  5
51
102
{ACAD_REACTORS
330
47
102
}
330
47
100
AcDbScale
 70
     0
300
1:40
140
1.0
141
40.0
290
     0
  0
SCALE
  5
52
102
{ACAD_REACTORS
330
47
102
}
330
47
100
AcDbScale
 70
     0
300
1:50
140
1.0
141
50.0
290
     0
  0
SCALE
  5
53
102
{ACAD_REACTORS
330
47
102
}
330
47
100
AcDbScale
 70
     0
300
1:100
140
1.0
141
100.0
290
     0
  0
SCALE
  5
54
102
{ACAD_REACTORS
330
47
102
}
330
47
100
AcDbScale
 70
     0
300
2:1
140
2.0
141
1.0
290
     0
  0
SCALE
  5
55
102
{ACAD_REACTORS
330
47
102
}
330
47
100
AcDbScale
 70
     0
300
4:1
140
4.0
141
1.0
290
     0
  0
SCALE
  5
56
102
{ACAD_REACTORS
330
47
102
}
330
47
100
AcDbScale
 70
     0
300
8:1
140
8.0
141
1.0
290
     0
  0
SCALE
  5
57
102
{ACAD_REACTORS
330
47
102
}
330
47
100
AcDbScale
 70
     0
300
10:1
140
10.0
141
1.0
290
     0
  0
SCALE
  5
58
102
{ACAD_REACTORS
330
47
102
}
330
47
100
AcDbScale
 70
     0
300
100:1
140
100.0
141
1.0
290
     0
  0
SCALE
  5
59
102
{ACAD_REACTORS
330
47
102
}
330
47
100
AcDbScale
 70
     0
300
1/128" = 1'-0"
140
0.0078125
141
12.0
290
     0
  0
SCALE
  5
5A
102
{ACAD_REACTORS
330
47
102
}
330
47
100
AcDbScale
 70
     0
300
1/64" = 1'-0"
140
0.015625
141
12.0
290
     0
  0
SCALE
  5
5B
102
{ACAD_REACTORS
330
47
102
}
330
47
100
AcDbScale
 70
     0
300
1/32" = 1'-0"
140
0.03125
141
12.0
290
     0
  0
SCALE
  5
5C
102
{ACAD_REACTORS
330
47
102
}
330
47
100
AcDbScale
 70
     0
300
1/16" = 1'-0"
140
0.0625
141
12.0
290
     0
  0
SCALE
  5
5D
102
{ACAD_REACTORS
330
47
102
}
330
47
100
AcDbScale
 70
     0
300
3/32" = 1'-0"
140
0.09375
141
12.0
290
     0
  0
SCALE
  5
5E
102
{ACAD_REACTORS
330
47
102
}
330
47
100
AcDbScale
 70
     0
300
1/8" = 1'-0"
140
0.125
141
12.0
290
     0
  0
SCALE
  5
5F
102
{ACAD_REACTORS
330
47
102
}
330
47
100
AcDbScale
 70
     0
300
3/16" = 1'-0"
140
0.1875
141
12.0
290
     0
  0
SCALE
  5
60
102
{ACAD_REACTORS
330
47
102
}
330
47
100
AcDbScale
 70
     0
300
1/4" = 1'-0"
140
0.25
141
12.0
290
     0
  0
SCALE
  5
61
102
{ACAD_REACTORS
330
47
102
}
330
47
100
AcDbScale
 70
     0
300
3/8" = 1'-0"
140
0.375
141
12.0
290
     0
  0
SCALE
  5
62
102
{ACAD_REACTORS
330
47
102
}
330
47
100
AcDbScale
 70
     0
300
1/2" = 1'-0"
140
0.5
141
12.0
290
     0
  0
SCALE
  5
63
102
{ACAD_REACTORS
330
47
102
}
330
47
100
AcDbScale
 70
     0
300
3/4" = 1'-0"
140
0.75
141
12.0
290
     0
  0
SCALE
  5
64
102
{ACAD_REACTORS
330
47
102
}
330
47
100
AcDbScale
 70
     0
300
1" = 1'-0"
140
1.0
141
12.0
290
     0
  0
SCALE
  5
65
102
{ACAD_REACTORS
330
47
102
}
330
47
100
AcDbScale
 70
     0
300
1-1/2" = 1'-0"
140
1.5
141
12.0
290
     0
  0
SCALE
  5
66
102
{ACAD_REACTORS
330
47
102
}
330
47
100
AcDbScale
 70
     0
300
3" = 1'-0"
140
3.0
141
12.0
290
     0
  0
SCALE
  5
67
102
{ACAD_REACTORS
330
47
102
}
330
47
100
AcDbScale
 70
     0
300
6" = 1'-0"
140
6.0
141
12.0
290
     0
  0
SCALE
  5
68
102
{ACAD_REACTORS
330
47
102
}
330
47
100
AcDbScale
 70
     0
300
1'-0" = 1'-0"
140
12.0
141
12.0
290
     0
  0
ENDSEC
  0
EOF
